ashlee simpson - pieces of me guitar tab by izmo
ashley simpson - pieces of me
from the album autobiography
ashley simpson - pieces of me
tabbed by izmo (izmo@snet.net)
     corrections are welcomed
     just don't rip this off

intro
 B/D             A/D
E--------------------------------
B-----2-2-2^3^2------2-2-2-2^3^2-
G-----2-2-2----------2-2-2-------
D-----0-0-0----------0-0-0-------
A-2-2------------0-0-------------
E--------------------------------

verse
  B/D            A/D
E--------------------------------
B-----2-2-2^3^2------2-2-2-2^3^2-
G-----2-2-2----------2-2-2-------
D-----0-0-0----------0-0-0-------
A-2-2------------0-0-------------
E--------------------------------
  G/A            A
E--------------------------------
B-----2-2---2------2-2---2-------
G-----2-2---2------2-2---2-------
D-----2-2---2------2-2---2-------
A-----0-0---0----0-0-0-0-0-------
E-3-3-----3----------------------
 repeat
On a Monday, I am waiting
Tuesday, I am fading
And by Wednesday, I can't sleep
Then the phone rings, I hear you
And the darkness is a clear view
Cuz you've come to rescue me

prechorus
Bmin  Gmaj
 -2-   -3-
 -3-   -3-
 -4-   -4-
 -4-   -5-
 -2-   -5-
 ---   -3-
Bmin  Csus2  Gmaj
 -2-   -3-    -3-
 -3-   -3-    -3-
 -4-   -5-    -4-
 -4-   -5-    -5-
 -2-   -3-    -5-
 ---   ---    -3-
Fall... With you, I fall so fast
I can hardly catch my breath, I hope it lasts

chorus
D Gmaj Emin Amaj x4
D (i dont know how to make it sound good)
Ohhhhh
It seems like I can finally rest my head on something real
I like the way that feels
Ohhhhh
It's as if you've known me better than I ever knew myself
I love how you can tell
All the pieces, pieces, pieces of me

verse
  B/D            A/D
E--------------------------------
B-----2-2-2^3^2------2-2-2-2^3^2-
G-----2-2-2----------2-2-2-------
D-----0-0-0----------0-0-0-------
A-2-2------------0-0-------------
E--------------------------------
  G/A            A
E--------------------------------
B-----2-2---2------2-2---2-------
G-----2-2---2------2-2---2-------
D-----2-2---2------2-2---2-------
A-----0-0---0----0-0-0-0-0-------
E-3-3-----3----------------------
 no repeat
I am moody, messy
I get restless, and it's senseless
How you never seem to care

prechorus
Bmin  Gmaj
 -2-   -3-
 -3-   -3-
 -4-   -4-
 -4-   -5-
 -2-   -5-
 ---   -3-
Bmin  Csus2  Gmaj
 -2-   -3-    -3-
 -3-   -3-    -3-
 -4-   -5-    -4-
 -4-   -5-    -5-
 -2-   -3-    -5-
 ---   ---    -3-
Fall... Sometimes I fall so fast
Well, I hit that bottom
Crash, you're all I have

chorus
D G Emin A x4
D
Ohhhhh
It seems like I can finally rest my head on something real
I like the way that feels
Ohhhhh
It's as if you've known me better than I ever knew myself
I love how you can tell
All the pieces, pieces, pieces of me

bridge
G D
G D
E Gb A
How do you know everything I'm about to say?
Am I that obvious?
And if it's written on my face...
I hope it never goes away... yeah

verse
  B/D            A/D             X2 
E--------------------------------
B-----2-2-2^3^2------2-2-2-2^3^2-
G-----2-2-2----------2-2-2-------
D-----0-0-0----------0-0-0-------
A-2-2------------0-0-------------
E--------------------------------
  G/A            A
E--------------------------------
B-----2-2---2------2-2---2-------
G-----2-2---2------2-2---2-------
D-----2-2---2------2-2---2-------
A-----0-0---0----0-0-0-0-0-------
E-3-3-----3----------------------
 no repeat
On a Monday, I am waiting
And by Tuesday, I am fading into your arms...
So I can breathe

chorus
D G Emin A x4
D
Ohhhhh
It seems like I can finally rest my head on something real
I like the way that feels
Ohhhhh
It's as if you've known me better than I ever knew myself
I love how you can tell

Outro
  B/D            Gmaj
E-----------------3---
B-----2-2-2^3^2---3---
G-----2-2-2-------4---
D-----0-0-0-------5---
A-2-2-------------5---
E-----------------3---
All the pieces, pieces, pieces of me
comments,questions-
email:izmo@snet.net

right click to save text version