This page hosted by Hypermart, the world's fastest growing business community!
Artist:  Creed
Album:   N / A
Title:   What's This Life For Acoustic
Email:   lehtinen@home.com
URL:     24.112.100.188/
--------------------------------------
Transcribed by Steve Lehtinen

Normal Tuning (ebgdaE)

Fig. 1

e---------------------0-----------------
b-0h1---1p0---0---------1---3-1-1p0-----  2x
g-----0-----2---2---0-----0---------2p0-
d-0-------------------------------------
a-----------------3---------------------
E---------------------------------------

e-0------------------------------------
b---1h3p1-------1--0h1-----1-------1-0-
g---------2---2--------2---------2-----
d-----------2------------2---0h2-------
a--------------------------------------
E--------------------------------------

e-----------------------------
b-3-1-0-------0-----3-1-0-0-0-
g-------0h2p0---2-0-----------
d-----------------------------
a-----------------------------
E-----------------------------

e---0-------------0------------
b-----1-3-/5-/6-5---1-3-/5-3-1-
g-2----------------------------
d------------------------------
a------------------------------
E------------------------------

e-0-------------0------------0-----
b---1-3-/5-/6-5---1-3-/5-3-1---1-3-
g----------------------------------
d----------------------------------
a----------------------------------
E----------------------------------

e-------0-----0-----
b-1-0-----0-----0---
g-----2-----2-----2-
d-------------------
a-------------------
E-------------------

End Fig. 1

Fig. 2

e-3-|-3--0---2-2h3p2-------2--2------3---- Begins 
b-3-|-3-----3-------3------2--2-------3--- picking
g-0-|-0----2---------2----4--------5---5-- the G
d-0-|-0---0--------------4--------5-----0- after the
a-2-|-2-----------------2--------3-------- 1st time
E-3-|-3-----------------------------------
     G          D           B            C

End Fig. 2

Fig. 3

e-3-3---2-2-3-2--2-2-3-
b-3-3---3-3-3-3--2-2-3-
g-0-0---2-2-2-2--4-4-5-
d-0-0---0-0-0-0--4-4-5-
a-2-2---0-0-0-0--2-2-3-
E-3-3------------------

End Fig. 3

Fig. 4

e-3-----0-0-0-0-0-0----0-0-0-0-0-0---5-5---3-3-
b-3-----1-1-0-3-1p0--0h1-1-0-3-1p0---3-3---3-3-
g-0-----0-0-0-0-0-0----2-2-2-2-2-2---0-0---0-0-
d-0-----2-2-2-2-2-2----2-2-2-2-2-2-------------
a-2-----3-3-3-3-3-3----0-0-0-0-0-0-------------
E-3--------------------------------------------

End Fig. 4

End With

e------3---3------
b-----3-----3-----
g----0-------0----
d---0---------0---
a--2-----------2--
E-3-------------3-