This page hosted by Hypermart, the world's fastest growing business community!
#----------------------------------PLEASE NOTE---------------------------------#
#This file is the author's own work and represents their interpretation of the #
#song. You may only use this file for private study, scholarship, or research. #
#------------------------------------------------------------------------------#
20/10/98
Pure Morning - Placebo
Tabbed by Owen Richards (Oze14@aol.com)
 
!!!!!!!!!!Amazingly there is no need to de-tune your guitar!!!!!!!                                                                  
This goes throughout the verses
     *Part 1*
A|--6--------6--------|--6--------6--------|
E|--------------------|--------------------|
       
 Then this comes in over the top      
        But keep playing it!
     
 *All of this is harmonics* and can be worked out for a bass                                                              
     *Part 2*
G|---------------------------------------|
D|--------------------------------7-7----|
A|------------------------------------8--| 
E|--7-7-9-----7-7-9-----7-7-9------------| 
  The 5x signifies a harmonic/mute thing on the 5th fret, keep mucking around with it!
    *Part 3*                                                  	      
E|------------------------|------------------------|		|---------|
B|------------------------|------------------------|		|---------|
G|------------------------|------------------------| 1st time =	|---------|
D|------------------------|------------------------|		|---------|
A|------------------------|------------------------|		|--9--10--|
E|--5x-5x-5x--5x----------|--5x 5x 5x--------------|		|---------|
								|---------|           |------|
								|---------|           |------|
                     				     2nd time = |---------|           |------|
								|---------|           |------|
								|---------|	      |------|
								|--8--9---| last time |--0---| 
         								    (will vary) Hold note


    This is the sequence of the album version:
	 part 1 6 times
         part 2 over part1 and play 10 times
	 part 3 2 times  (with open at the end)
	 part 1 4 times
  	 part 2 over part 1 and play together 9 times
	 part 3 7 times (with open at the end)
	 part 1 4 times
	 part 2 over part 1 and play together 4 times
	 part 3 14 times (with open at the end)
	
	
Please E-mail me at Oze14@aol.com if you have questions or comments