This page hosted by Hypermart, the world's fastest growing business community!
Hard Times by Rage Against The Machine
Hi RATMA fans this is Tom Morrelo. This is our latest song , hope u like it. If u have any suggestions on a solo then please e-mail them to my drinking partner Tom Arnott. His address is jerry.c.arnott@lineone.net
Thanks.    TOM MORRELO

INTRO
                   W/Distortion

                   E----------------------------------------------------------------------------------------------------------------
B----------------------------------------------------------------------------------------------------------------
G--------------------3---------------------------1--------------------------------------------------------------   Repeat 4 times
D-------------3--5-----5-3-5-------------1-3----3-1-3------------------1--------------------------1--------
A---3-3-3-3--------------------1-1-1-1-----------------------------1-3---3-1-3--------------1-3---3-1-3-
E-------------------------------------------------------------1-1-1-1------------------1-1-1-1----------------

VERSE

W/ Distortion

Play these chords as bar chords

         C                       A#                    F                     G
      / / / /   xxxxx       / / / /  xxxxxx     / / / /  xxxxxx   / / / /  xxxxxx    Repeat 4 times

CHORUS

Clean
                 Use  wah-wah on the  10,9,8   8,7,6    5,4,3   bits.
E-----------------------------------------------------------------------------------
B-----------8---8----8---------------6--6---6---------1--1--1--------3--3--3--
G-----------9---9----9---------------7--7---7---------2--2--2--------4--4--4--
D----------10--10--10---------------8--8--8----------3--3--3--------5--5--5-
A----------------------------------------------------------------------------------
E----8-8------------------------6-6----------------1-1-------------3-3----------