This page hosted by Hypermart, the world's fastest growing business community!

Semisonic - Singing In My Sleep

hello this is the second song from "feeling strangely fine"

It is a good song with cool lyrics and here is (basically) how to play
it.

the beginning, i don't even know what the hell that is.
Probably a synthesizer, but if you were to play it on a guitar, it would
be like this

|-----------------------0-----------------------|
|--0-2-4---0-2-4--0-2-4-------------------------|
|-----------------------------------------------|
|-----------------------------------------------|
|-----------------------------------------------|
|-----------------------------------------------|

over and over as much as needed.

|-----------------------------------------------|
|-----------------------------------------------|
|---9---4---6---2-------------------------------|
|---9---4---6---2-------------------------------|
|---7---2---4---0-------------------------------|
|-----------------------------------------------|
that is the verse part
each chord played 16 times.

then the bridge before the chorus is this
|----------------------------------------------|
|----------------------------------------------|
|------2h4-4--2h4-4--4h2-2--222----------------|
|------2h4-4--2h4-4--4h2-2--222----------------|
|------0h2-2--0h2-2--2h0-0--000----------------|
|----------------------------------------------|

the chorus is this

|-----7-------2------4------0----------------------|
|-------7-------2------4------0--------------------|
|---9------4-------6------2------------------------|
|---9------4-------6------2------------------------|
|---7------2-------4------0------------------------|
|--------------------------------------------------|

over and over until it's done.

I think that's about right, if i'm wrong ( which i probably am)
i don't care just post a better one.

thank you and enjoy

From: JT


Submitted: August 14, 1998.


The files contained here-in are the authors' own work and represents their interpretation of the songs. You may only use this information for private study, scholarship, or
research. All other content is copyright 1995,1996,1997,1998 by Keith Gabryelski (ag\@wildfire.com). This site's space and bandwidth graciously provided by Wildfire
Communications, Inc.